ISO-10303-21;
HEADER;
FILE_DESCRIPTION (( 'STEP AP214' ),
    '1' );
FILE_NAME ('BS1ISOK100114 FULLVAC.STEP',
    '2024-05-22T09:01:26',
    ( '' ),
    ( '' ),
    'SwSTEP 2.0',
    'SolidWorks 2017',
    '' );
FILE_SCHEMA (( 'AUTOMOTIVE_DESIGN' ));
ENDSEC;

DATA;
#1 = SURFACE_SIDE_STYLE ('',( #32 ) ) ;
#2 = ORIENTED_EDGE ( 'NONE', *, *, #262, .T. ) ;
#3 = EDGE_CURVE ( 'NONE', #71, #71, #251, .T. ) ;
#4 = ADVANCED_FACE ( 'NONE', ( #46, #205 ), #144, .T. ) ;
#5 = VERTEX_POINT ( 'NONE', #137 ) ;
#6 = FACE_BOUND ( 'NONE', #177, .T. ) ;
#7 = ORIENTED_EDGE ( 'NONE', *, *, #341, .F. ) ;
#8 = SURFACE_SIDE_STYLE ('',( #348 ) ) ;
#9 = CIRCLE ( 'NONE', #286, 54.57499999999998200 ) ;
#10 = EDGE_LOOP ( 'NONE', ( #60 ) ) ;
#11 = VERTEX_POINT ( 'NONE', #353 ) ;
#12 = FACE_OUTER_BOUND ( 'NONE', #148, .T. ) ;
#13 = AXIS2_PLACEMENT_3D ( 'NONE', #31, #80, #297 ) ;
#14 = PLANE ( 'NONE',  #334 ) ;
#15 = CARTESIAN_POINT ( 'NONE',  ( 0.0000000000000000000, -12.00000000000000900, 0.0000000000000000000 ) ) ;
#16 = DIRECTION ( 'NONE',  ( 0.0000000000000000000, 1.000000000000000000, 0.0000000000000000000 ) ) ;
#17 = DIRECTION ( 'NONE',  ( 0.0000000000000000000, -1.000000000000000000, 0.0000000000000000000 ) ) ;
#18 = CIRCLE ( 'NONE', #140, 65.00000000000000000 ) ;
#19 = AXIS2_PLACEMENT_3D ( 'NONE', #128, #272, #207 ) ;
#20 = ORIENTED_EDGE ( 'NONE', *, *, #279, .F. ) ;
#21 = DIRECTION ( 'NONE',  ( 0.0000000000000000000, 0.0000000000000000000, -1.000000000000000000 ) ) ;
#22 = AXIS2_PLACEMENT_3D ( 'NONE', #15, #330, #145 ) ;
#23 = AXIS2_PLACEMENT_3D ( 'NONE', #166, #192, #273 ) ;
#24 = DIRECTION ( 'NONE',  ( -0.0000000000000000000, -1.000000000000000000, -0.0000000000000000000 ) ) ;
#25 = TOROIDAL_SURFACE ( 'NONE', #34, 64.79999999999999700, 0.2000000000000078100 ) ;
#26 = DIRECTION ( 'NONE',  ( 0.0000000000000000000, 1.000000000000000000, 0.0000000000000000000 ) ) ;
#27 = AXIS2_PLACEMENT_3D ( 'NONE', #98, #151, #113 ) ;
#28 = CARTESIAN_POINT ( 'NONE',  ( 0.0000000000000000000, -0.8000000000000072600, 65.00000000000000000 ) ) ;
#29 = EDGE_LOOP ( 'NONE', ( #206 ) ) ;
#30 = CARTESIAN_POINT ( 'NONE',  ( 0.0000000000000000000, -3.311805698386590900, 65.00000000000000000 ) ) ;
#31 = CARTESIAN_POINT ( 'NONE',  ( 0.0000000000000000000, 0.0000000000000000000, 0.0000000000000000000 ) ) ;
#32 = SURFACE_STYLE_FILL_AREA ( #104 ) ;
#33 = CONICAL_SURFACE ( 'NONE', #295, 51.07500000000000300, 0.7853981633974465000 ) ;
#34 = AXIS2_PLACEMENT_3D ( 'NONE', #155, #181, #102 ) ;
#35 = FACE_BOUND ( 'NONE', #331, .T. ) ;
#36 = CLOSED_SHELL ( 'NONE', ( #4, #327, #147, #254, #89, #226, #87, #333, #173, #335, #63, #143, #38, #172, #259 ) ) ;
#37 = CARTESIAN_POINT ( 'NONE',  ( 0.0000000000000000000, -6.938893903907228400E-015, 0.0000000000000000000 ) ) ;
#38 = ADVANCED_FACE ( 'NONE', ( #212, #296 ), #188, .F. ) ;
#39 = AXIS2_PLACEMENT_3D ( 'NONE', #37, #310, #228 ) ;
#40 =( GEOMETRIC_REPRESENTATION_CONTEXT ( 3 ) GLOBAL_UNCERTAINTY_ASSIGNED_CONTEXT ( ( #225 ) ) GLOBAL_UNIT_ASSIGNED_CONTEXT ( ( #85, #325, #110 ) ) REPRESENTATION_CONTEXT ( 'NONE', 'WORKASPACE' ) );
#41 = COLOUR_RGB ( '',0.7921568627450980000, 0.8196078431372548800, 0.9333333333333333500 ) ;
#42 = CIRCLE ( 'NONE', #88, 57.10000000000000100 ) ;
#43 = DIRECTION ( 'NONE',  ( 0.0000000000000000000, 0.0000000000000000000, 1.000000000000000000 ) ) ;
#44 =( NAMED_UNIT ( * ) PLANE_ANGLE_UNIT ( ) SI_UNIT ( $, .RADIAN. ) );
#45 = FACE_OUTER_BOUND ( 'NONE', #57, .T. ) ;
#46 = FACE_BOUND ( 'NONE', #169, .T. ) ;
#47 = CARTESIAN_POINT ( 'NONE',  ( 0.0000000000000000000, 154.5031888230074300, 0.0000000000000000000 ) ) ;
#48 = CARTESIAN_POINT ( 'NONE',  ( 51.00000000000000000, -7.000000000000008900, 0.0000000000000000000 ) ) ;
#49 = DIRECTION ( 'NONE',  ( 0.0000000000000000000, 1.000000000000000000, 0.0000000000000000000 ) ) ;
#50 = VERTEX_POINT ( 'NONE', #83 ) ;
#51 = EDGE_LOOP ( 'NONE', ( #2 ) ) ;
#52 = EDGE_CURVE ( 'NONE', #250, #250, #223, .T. ) ;
#53 = CARTESIAN_POINT ( 'NONE',  ( 0.0000000000000000000, -6.938893903907228400E-015, 0.0000000000000000000 ) ) ;
#54 = PRESENTATION_STYLE_ASSIGNMENT (( #274 ) ) ;
#55 = FACE_OUTER_BOUND ( 'NONE', #303, .T. ) ;
#56 = CARTESIAN_POINT ( 'NONE',  ( 0.0000000000000000000, -3.500000000000013300, 0.0000000000000000000 ) ) ;
#57 = EDGE_LOOP ( 'NONE', ( #74 ) ) ;
#58 = CARTESIAN_POINT ( 'NONE',  ( 0.0000000000000000000, -7.000000000000008900, -54.57499999999998200 ) ) ;
#59 = DIRECTION ( 'NONE',  ( 0.0000000000000000000, -1.000000000000000000, -0.0000000000000000000 ) ) ;
#60 = ORIENTED_EDGE ( 'NONE', *, *, #232, .T. ) ;
#61 = AXIS2_PLACEMENT_3D ( 'NONE', #282, #16, #180 ) ;
#62 = STYLED_ITEM ( 'NONE', ( #54 ), #165 ) ;
#63 = ADVANCED_FACE ( 'NONE', ( #6, #123 ), #156, .T. ) ;
#64 = FACE_OUTER_BOUND ( 'NONE', #276, .T. ) ;
#65 = MANIFOLD_SOLID_BREP ( 'Chanfrein2', #36 ) ;
#66 = EDGE_LOOP ( 'NONE', ( #324 ) ) ;
#67 = CARTESIAN_POINT ( 'NONE',  ( 64.20000000000000300, -12.00000000000000900, 0.0000000000000000000 ) ) ;
#68 = FACE_OUTER_BOUND ( 'NONE', #152, .T. ) ;
#69 = STYLED_ITEM ( 'NONE', ( #162 ), #65 ) ;
#70 = PRODUCT_DEFINITION ( 'UNKNOWN', '', #117, #294 ) ;
#71 = VERTEX_POINT ( 'NONE', #82 ) ;
#72 = CARTESIAN_POINT ( 'NONE',  ( 0.0000000000000000000, -12.50102254169809700, 0.0000000000000000000 ) ) ;
#73 = FACE_OUTER_BOUND ( 'NONE', #76, .T. ) ;
#74 = ORIENTED_EDGE ( 'NONE', *, *, #221, .F. ) ;
#75 = CARTESIAN_POINT ( 'NONE',  ( 0.0000000000000000000, -3.311805698386590900, 0.0000000000000000000 ) ) ;
#76 = EDGE_LOOP ( 'NONE', ( #336 ) ) ;
#77 = DIRECTION ( 'NONE',  ( 0.0000000000000000000, 1.000000000000000000, 0.0000000000000000000 ) ) ;
#78 = PRESENTATION_LAYER_ASSIGNMENT (  '', '', ( #62 ) ) ;
#79 = DIRECTION ( 'NONE',  ( 0.0000000000000000000, 1.000000000000000000, 0.0000000000000000000 ) ) ;
#80 = DIRECTION ( 'NONE',  ( 0.0000000000000000000, 0.0000000000000000000, 1.000000000000000000 ) ) ;
#81 = ORIENTED_EDGE ( 'NONE', *, *, #279, .T. ) ;
#82 = CARTESIAN_POINT ( 'NONE',  ( 0.0000000000000000000, -12.00000000000000900, 64.20000000000000300 ) ) ;
#83 = CARTESIAN_POINT ( 'NONE',  ( 0.0000000000000000000, -6.938893903907228400E-015, 51.07500000000000300 ) ) ;
#84 = CARTESIAN_POINT ( 'NONE',  ( 0.0000000000000000000, -6.688194301613425100, 65.00000000000000000 ) ) ;
#85 =( LENGTH_UNIT ( ) NAMED_UNIT ( * ) SI_UNIT ( .MILLI., .METRE. ) );
#86 = ORIENTED_EDGE ( 'NONE', *, *, #95, .T. ) ;
#87 = ADVANCED_FACE ( 'NONE', ( #261, #45 ), #97, .T. ) ;
#88 = AXIS2_PLACEMENT_3D ( 'NONE', #238, #77, #343 ) ;
#89 = ADVANCED_FACE ( 'NONE', ( #288, #171 ), #230, .T. ) ;
#90 = CARTESIAN_POINT ( 'NONE',  ( 0.0000000000000000000, -3.311805698386590900, 0.0000000000000000000 ) ) ;
#91 = DIRECTION ( 'NONE',  ( 0.0000000000000000000, -1.000000000000000000, -0.0000000000000000000 ) ) ;
#92 =( LENGTH_UNIT ( ) NAMED_UNIT ( * ) SI_UNIT ( .MILLI., .METRE. ) );
#93 = ORIENTED_EDGE ( 'NONE', *, *, #52, .T. ) ;
#94 = PRODUCT_DEFINITION_SHAPE ( 'NONE', 'NONE',  #70 ) ;
#95 = EDGE_CURVE ( 'NONE', #5, #5, #131, .T. ) ;
#96 =( GEOMETRIC_REPRESENTATION_CONTEXT ( 3 ) GLOBAL_UNCERTAINTY_ASSIGNED_CONTEXT ( ( #290 ) ) GLOBAL_UNIT_ASSIGNED_CONTEXT ( ( #193, #244, #220 ) ) REPRESENTATION_CONTEXT ( 'NONE', 'WORKASPACE' ) );
#97 = TOROIDAL_SURFACE ( 'NONE', #186, 64.79999999999999700, 0.2000000000000074200 ) ;
#98 = CARTESIAN_POINT ( 'NONE',  ( 0.0000000000000000000, -12.00000000000000900, 0.0000000000000000000 ) ) ;
#99 = COLOUR_RGB ( '',0.7921568627450980000, 0.8196078431372548800, 0.9333333333333333500 ) ;
#100 = CARTESIAN_POINT ( 'NONE',  ( 0.0000000000000000000, -12.50102254169809700, 0.0000000000000000000 ) ) ;
#101 = CARTESIAN_POINT ( 'NONE',  ( 0.0000000000000000000, -3.510416792694058600, 0.0000000000000000000 ) ) ;
#102 = DIRECTION ( 'NONE',  ( 0.0000000000000000000, 0.0000000000000000000, 1.000000000000000000 ) ) ;
#103 = CIRCLE ( 'NONE', #315, 51.07500000000000300 ) ;
#104 = FILL_AREA_STYLE ('',( #134 ) ) ;
#105 = DIRECTION ( 'NONE',  ( 0.0000000000000000000, 1.000000000000000000, 0.0000000000000000000 ) ) ;
#106 = CARTESIAN_POINT ( 'NONE',  ( 0.0000000000000000000, -3.500000000000013300, -51.07500000000000300 ) ) ;
#107 = FACE_OUTER_BOUND ( 'NONE', #237, .T. ) ;
#108 = EDGE_LOOP ( 'NONE', ( #256 ) ) ;
#109 = PRODUCT_CONTEXT ( 'NONE', #130, 'mechanical' ) ;
#110 =( NAMED_UNIT ( * ) SI_UNIT ( $, .STERADIAN. ) SOLID_ANGLE_UNIT ( ) );
#111 = CIRCLE ( 'NONE', #317, 64.20000000000000300 ) ;
#112 = EDGE_CURVE ( 'NONE', #50, #50, #103, .T. ) ;
#113 = DIRECTION ( 'NONE',  ( 0.0000000000000000000, 0.0000000000000000000, 1.000000000000000000 ) ) ;
#114 = CIRCLE ( 'NONE', #247, 64.82352941176469600 ) ;
#115 = ORIENTED_EDGE ( 'NONE', *, *, #354, .T. ) ;
#116 = CARTESIAN_POINT ( 'NONE',  ( 0.0000000000000000000, -12.50102254169809700, 0.0000000000000000000 ) ) ;
#117 = PRODUCT_DEFINITION_FORMATION_WITH_SPECIFIED_SOURCE ( 'ANY', '', #196, .NOT_KNOWN. ) ;
#118 = CARTESIAN_POINT ( 'NONE',  ( 0.0000000000000000000, -6.938893903907228400E-015, 0.0000000000000000000 ) ) ;
#119 = VERTEX_POINT ( 'NONE', #216 ) ;
#120 = ORIENTED_EDGE ( 'NONE', *, *, #322, .F. ) ;
#121 = AXIS2_PLACEMENT_3D ( 'NONE', #75, #314, #269 ) ;
#122 = DIRECTION ( 'NONE',  ( 0.0000000000000000000, 1.000000000000000000, 0.0000000000000000000 ) ) ;
#123 = FACE_OUTER_BOUND ( 'NONE', #66, .T. ) ;
#124 = ORIENTED_EDGE ( 'NONE', *, *, #213, .F. ) ;
#125 = DIRECTION ( 'NONE',  ( 0.0000000000000000000, 1.000000000000000000, 0.0000000000000000000 ) ) ;
#126 = DIRECTION ( 'NONE',  ( 0.0000000000000000000, 0.0000000000000000000, 1.000000000000000000 ) ) ;
#127 = ORIENTED_EDGE ( 'NONE', *, *, #240, .F. ) ;
#128 = CARTESIAN_POINT ( 'NONE',  ( 0.0000000000000000000, -6.489583207305955200, 0.0000000000000000000 ) ) ;
#129 = DIRECTION ( 'NONE',  ( 0.0000000000000000000, 0.0000000000000000000, 1.000000000000000000 ) ) ;
#130 = APPLICATION_CONTEXT ( 'automotive_design' ) ;
#131 = CIRCLE ( 'NONE', #61, 62.50000000000000000 ) ;
#132 = DIRECTION ( 'NONE',  ( 0.0000000000000000000, 0.0000000000000000000, -1.000000000000000000 ) ) ;
#133 = EDGE_LOOP ( 'NONE', ( #139 ) ) ;
#134 = FILL_AREA_STYLE_COLOUR ( '', #41 ) ;
#135 = AXIS2_PLACEMENT_3D ( 'NONE', #338, #125, #332 ) ;
#136 = DIRECTION ( 'NONE',  ( 0.0000000000000000000, 1.000000000000000000, 0.0000000000000000000 ) ) ;
#137 = CARTESIAN_POINT ( 'NONE',  ( 0.0000000000000000000, -10.00000000000000900, 62.50000000000000000 ) ) ;
#138 = VERTEX_POINT ( 'NONE', #106 ) ;
#139 = ORIENTED_EDGE ( 'NONE', *, *, #252, .T. ) ;
#140 = AXIS2_PLACEMENT_3D ( 'NONE', #239, #158, #126 ) ;
#141 = FACE_BOUND ( 'NONE', #157, .T. ) ;
#142 = ORIENTED_EDGE ( 'NONE', *, *, #232, .F. ) ;
#143 = ADVANCED_FACE ( 'NONE', ( #141, #73 ), #14, .T. ) ;
#144 = PLANE ( 'NONE',  #268 ) ;
#145 = DIRECTION ( 'NONE',  ( 0.0000000000000000000, 0.0000000000000000000, 1.000000000000000000 ) ) ;
#146 = VERTEX_POINT ( 'NONE', #298 ) ;
#147 = ADVANCED_FACE ( 'NONE', ( #12, #306 ), #198, .F. ) ;
#148 = EDGE_LOOP ( 'NONE', ( #189 ) ) ;
#149 = AXIS2_PLACEMENT_3D ( 'NONE', #344, #79, #182 ) ;
#150 = VERTEX_POINT ( 'NONE', #170 ) ;
#151 = DIRECTION ( 'NONE',  ( 0.0000000000000000000, 1.000000000000000000, 0.0000000000000000000 ) ) ;
#152 = EDGE_LOOP ( 'NONE', ( #124 ) ) ;
#153 = DIRECTION ( 'NONE',  ( 0.0000000000000000000, 0.0000000000000000000, -1.000000000000000000 ) ) ;
#154 = DIRECTION ( 'NONE',  ( 0.0000000000000000000, 0.0000000000000000000, 1.000000000000000000 ) ) ;
#155 = CARTESIAN_POINT ( 'NONE',  ( 0.0000000000000000000, -6.688194301613425100, 0.0000000000000000000 ) ) ;
#156 = CONICAL_SURFACE ( 'NONE', #135, 65.00000000000000000, 0.7853981633974450600 ) ;
#157 = EDGE_LOOP ( 'NONE', ( #93 ) ) ;
#158 = DIRECTION ( 'NONE',  ( 0.0000000000000000000, 1.000000000000000000, 0.0000000000000000000 ) ) ;
#159 = CARTESIAN_POINT ( 'NONE',  ( 0.0000000000000000000, -3.500000000000013300, 0.0000000000000000000 ) ) ;
#160 = PLANE ( 'NONE',  #233 ) ;
#161 = DIRECTION ( 'NONE',  ( 0.0000000000000000000, 0.0000000000000000000, -1.000000000000000000 ) ) ;
#162 = PRESENTATION_STYLE_ASSIGNMENT (( #176 ) ) ;
#163 = APPLICATION_CONTEXT ( 'automotive_design' ) ;
#164 = APPLICATION_PROTOCOL_DEFINITION ( 'draft international standard', 'automotive_design', 1998, #130 ) ;
#165 = ADVANCED_BREP_SHAPE_REPRESENTATION ( 'BS1ISOK100114 FULLVAC', ( #65, #13 ), #40 ) ;
#166 = CARTESIAN_POINT ( 'NONE',  ( 0.0000000000000000000, -12.50102254169809700, 0.0000000000000000000 ) ) ;
#167 = FACE_OUTER_BOUND ( 'NONE', #229, .T. ) ;
#168 = DIRECTION ( 'NONE',  ( 0.0000000000000000000, -1.000000000000000000, 0.0000000000000000000 ) ) ;
#169 = EDGE_LOOP ( 'NONE', ( #20 ) ) ;
#170 = CARTESIAN_POINT ( 'NONE',  ( 0.0000000000000000000, -7.000000000000006200, -57.10000000000000100 ) ) ;
#171 = FACE_BOUND ( 'NONE', #307, .T. ) ;
#172 = ADVANCED_FACE ( 'NONE', ( #107, #55 ), #312, .F. ) ;
#173 = ADVANCED_FACE ( 'NONE', ( #64, #329 ), #25, .T. ) ;
#174 = AXIS2_PLACEMENT_3D ( 'NONE', #116, #305, #263 ) ;
#175 = CIRCLE ( 'NONE', #270, 57.10000000000000100 ) ;
#176 = SURFACE_STYLE_USAGE ( .BOTH. , #8 ) ;
#177 = EDGE_LOOP ( 'NONE', ( #292 ) ) ;
#178 = FACE_BOUND ( 'NONE', #108, .T. ) ;
#179 = DIRECTION ( 'NONE',  ( 0.0000000000000000000, 1.000000000000000000, 0.0000000000000000000 ) ) ;
#180 = DIRECTION ( 'NONE',  ( 0.0000000000000000000, 0.0000000000000000000, 1.000000000000000000 ) ) ;
#181 = DIRECTION ( 'NONE',  ( 0.0000000000000000000, 1.000000000000000000, 0.0000000000000000000 ) ) ;
#182 = DIRECTION ( 'NONE',  ( 0.0000000000000000000, -0.0000000000000000000, 1.000000000000000000 ) ) ;
#183 = PLANE ( 'NONE',  #149 ) ;
#184 = ORIENTED_EDGE ( 'NONE', *, *, #252, .F. ) ;
#185 = DIRECTION ( 'NONE',  ( 0.0000000000000000000, 1.000000000000000000, 0.0000000000000000000 ) ) ;
#186 = AXIS2_PLACEMENT_3D ( 'NONE', #90, #311, #154 ) ;
#187 = DIRECTION ( 'NONE',  ( 0.0000000000000000000, 0.0000000000000000000, 1.000000000000000000 ) ) ;
#188 = CYLINDRICAL_SURFACE ( 'NONE', #174, 62.50000000000000000 ) ;
#189 = ORIENTED_EDGE ( 'NONE', *, *, #322, .T. ) ;
#190 = DIRECTION ( 'NONE',  ( 0.0000000000000000000, 0.0000000000000000000, 1.000000000000000000 ) ) ;
#191 =( GEOMETRIC_REPRESENTATION_CONTEXT ( 3 ) GLOBAL_UNCERTAINTY_ASSIGNED_CONTEXT ( ( #350 ) ) GLOBAL_UNIT_ASSIGNED_CONTEXT ( ( #92, #44, #234 ) ) REPRESENTATION_CONTEXT ( 'NONE', 'WORKASPACE' ) );
#192 = DIRECTION ( 'NONE',  ( 0.0000000000000000000, 1.000000000000000000, 0.0000000000000000000 ) ) ;
#193 =( LENGTH_UNIT ( ) NAMED_UNIT ( * ) SI_UNIT ( .MILLI., .METRE. ) );
#194 = FACE_OUTER_BOUND ( 'NONE', #219, .T. ) ;
#195 = EDGE_LOOP ( 'NONE', ( #326 ) ) ;
#196 = PRODUCT ( 'BS1ISOK100114 FULLVAC', 'BS1ISOK100114 FULLVAC', '', ( #109 ) ) ;
#197 = CIRCLE ( 'NONE', #215, 51.07500000000000300 ) ;
#198 = CYLINDRICAL_SURFACE ( 'NONE', #227, 51.07500000000000300 ) ;
#199 = ORIENTED_EDGE ( 'NONE', *, *, #240, .T. ) ;
#200 = DIRECTION ( 'NONE',  ( 0.0000000000000000000, 0.0000000000000000000, -1.000000000000000000 ) ) ;
#201 = FILL_AREA_STYLE ('',( #260 ) ) ;
#202 = EDGE_LOOP ( 'NONE', ( #340 ) ) ;
#203 = DIRECTION ( 'NONE',  ( 0.0000000000000000000, -1.000000000000000000, -0.0000000000000000000 ) ) ;
#204 = VERTEX_POINT ( 'NONE', #352 ) ;
#205 = FACE_OUTER_BOUND ( 'NONE', #349, .T. ) ;
#206 = ORIENTED_EDGE ( 'NONE', *, *, #354, .F. ) ;
#207 = DIRECTION ( 'NONE',  ( 0.0000000000000000000, 0.0000000000000000000, 1.000000000000000000 ) ) ;
#208 = TOROIDAL_SURFACE ( 'NONE', #337, 65.00000000000000000, 1.499999999999994900 ) ;
#209 = ORIENTED_EDGE ( 'NONE', *, *, #112, .F. ) ;
#210 = DIRECTION ( 'NONE',  ( 0.0000000000000000000, 0.0000000000000000000, -1.000000000000000000 ) ) ;
#211 = SHAPE_DEFINITION_REPRESENTATION ( #94, #165 ) ;
#212 = FACE_OUTER_BOUND ( 'NONE', #342, .T. ) ;
#213 = EDGE_CURVE ( 'NONE', #150, #150, #42, .T. ) ;
#214 = ORIENTED_EDGE ( 'NONE', *, *, #95, .F. ) ;
#215 = AXIS2_PLACEMENT_3D ( 'NONE', #56, #168, #132 ) ;
#216 = CARTESIAN_POINT ( 'NONE',  ( 0.0000000000000000000, -11.20000000000000800, 65.00000000000000000 ) ) ;
#217 = CARTESIAN_POINT ( 'NONE',  ( 0.0000000000000000000, -6.688194301613425100, 0.0000000000000000000 ) ) ;
#218 = VERTEX_POINT ( 'NONE', #30 ) ;
#219 = EDGE_LOOP ( 'NONE', ( #199 ) ) ;
#220 =( NAMED_UNIT ( * ) SI_UNIT ( $, .STERADIAN. ) SOLID_ANGLE_UNIT ( ) );
#221 = EDGE_CURVE ( 'NONE', #218, #218, #304, .T. ) ;
#222 = FACE_OUTER_BOUND ( 'NONE', #51, .T. ) ;
#223 = CIRCLE ( 'NONE', #27, 62.50000000000000000 ) ;
#224 = EDGE_LOOP ( 'NONE', ( #142 ) ) ;
#225 = UNCERTAINTY_MEASURE_WITH_UNIT (LENGTH_MEASURE( 1.000000000000000100E-005 ), #85, 'distance_accuracy_value', 'NONE');
#226 = ADVANCED_FACE ( 'NONE', ( #266, #323 ), #236, .T. ) ;
#227 = AXIS2_PLACEMENT_3D ( 'NONE', #72, #122, #265 ) ;
#228 = DIRECTION ( 'NONE',  ( 0.0000000000000000000, 0.0000000000000000000, -1.000000000000000000 ) ) ;
#229 = EDGE_LOOP ( 'NONE', ( #267 ) ) ;
#230 = CONICAL_SURFACE ( 'NONE', #39, 64.20000000000000300, 0.7853981633974450600 ) ;
#231 = DIRECTION ( 'NONE',  ( -0.0000000000000000000, -1.000000000000000000, -0.0000000000000000000 ) ) ;
#232 = EDGE_CURVE ( 'NONE', #11, #11, #114, .T. ) ;
#233 = AXIS2_PLACEMENT_3D ( 'NONE', #48, #59, #351 ) ;
#234 =( NAMED_UNIT ( * ) SI_UNIT ( $, .STERADIAN. ) SOLID_ANGLE_UNIT ( ) );
#235 = CARTESIAN_POINT ( 'NONE',  ( 62.50000000000000000, -10.00000000000000900, 0.0000000000000000000 ) ) ;
#236 = CYLINDRICAL_SURFACE ( 'NONE', #301, 65.00000000000000000 ) ;
#237 = EDGE_LOOP ( 'NONE', ( #81 ) ) ;
#238 = CARTESIAN_POINT ( 'NONE',  ( 0.0000000000000000000, -7.000000000000006200, 0.0000000000000000000 ) ) ;
#239 = CARTESIAN_POINT ( 'NONE',  ( 0.0000000000000000000, -0.8000000000000072600, 0.0000000000000000000 ) ) ;
#240 = EDGE_CURVE ( 'NONE', #204, #204, #246, .T. ) ;
#241 = FACE_OUTER_BOUND ( 'NONE', #285, .T. ) ;
#242 = AXIS2_PLACEMENT_3D ( 'NONE', #318, #185, #187 ) ;
#243 = CARTESIAN_POINT ( 'NONE',  ( 0.0000000000000000000, -10.00000000000000900, 0.0000000000000000000 ) ) ;
#244 =( NAMED_UNIT ( * ) PLANE_ANGLE_UNIT ( ) SI_UNIT ( $, .RADIAN. ) );
#245 = DIRECTION ( 'NONE',  ( 0.0000000000000000000, 0.0000000000000000000, 1.000000000000000000 ) ) ;
#246 = CIRCLE ( 'NONE', #19, 64.82352941176471000 ) ;
#247 = AXIS2_PLACEMENT_3D ( 'NONE', #101, #49, #293 ) ;
#248 = EDGE_LOOP ( 'NONE', ( #127 ) ) ;
#249 = CARTESIAN_POINT ( 'NONE',  ( 0.0000000000000000000, -6.938893903907228400E-015, 64.20000000000000300 ) ) ;
#250 = VERTEX_POINT ( 'NONE', #277 ) ;
#251 = CIRCLE ( 'NONE', #22, 64.20000000000000300 ) ;
#252 = EDGE_CURVE ( 'NONE', #284, #284, #18, .T. ) ;
#253 = PRODUCT_RELATED_PRODUCT_CATEGORY ( 'part', '', ( #196 ) ) ;
#254 = ADVANCED_FACE ( 'NONE', ( #167, #302 ), #183, .T. ) ;
#255 = VERTEX_POINT ( 'NONE', #84 ) ;
#256 = ORIENTED_EDGE ( 'NONE', *, *, #308, .T. ) ;
#257 = DIRECTION ( 'NONE',  ( 0.0000000000000000000, 0.0000000000000000000, -1.000000000000000000 ) ) ;
#258 = EDGE_LOOP ( 'NONE', ( #184 ) ) ;
#259 = ADVANCED_FACE ( 'NONE', ( #241, #35 ), #33, .F. ) ;
#260 = FILL_AREA_STYLE_COLOUR ( '', #99 ) ;
#261 = FACE_OUTER_BOUND ( 'NONE', #10, .T. ) ;
#262 = EDGE_CURVE ( 'NONE', #119, #119, #320, .T. ) ;
#263 = DIRECTION ( 'NONE',  ( 0.0000000000000000000, 0.0000000000000000000, 1.000000000000000000 ) ) ;
#264 = FACE_OUTER_BOUND ( 'NONE', #224, .T. ) ;
#265 = DIRECTION ( 'NONE',  ( 0.0000000000000000000, 0.0000000000000000000, 1.000000000000000000 ) ) ;
#266 = FACE_OUTER_BOUND ( 'NONE', #195, .T. ) ;
#267 = ORIENTED_EDGE ( 'NONE', *, *, #341, .T. ) ;
#268 = AXIS2_PLACEMENT_3D ( 'NONE', #235, #91, #257 ) ;
#269 = DIRECTION ( 'NONE',  ( 0.0000000000000000000, 0.0000000000000000000, 1.000000000000000000 ) ) ;
#270 = AXIS2_PLACEMENT_3D ( 'NONE', #243, #24, #210 ) ;
#271 = EDGE_LOOP ( 'NONE', ( #278 ) ) ;
#272 = DIRECTION ( 'NONE',  ( 0.0000000000000000000, 1.000000000000000000, 0.0000000000000000000 ) ) ;
#273 = DIRECTION ( 'NONE',  ( 0.0000000000000000000, 0.0000000000000000000, 1.000000000000000000 ) ) ;
#274 = SURFACE_STYLE_USAGE ( .BOTH. , #1 ) ;
#275 = CIRCLE ( 'NONE', #346, 65.00000000000000000 ) ;
#276 = EDGE_LOOP ( 'NONE', ( #115 ) ) ;
#277 = CARTESIAN_POINT ( 'NONE',  ( 0.0000000000000000000, -12.00000000000000900, 62.50000000000000000 ) ) ;
#278 = ORIENTED_EDGE ( 'NONE', *, *, #52, .F. ) ;
#279 = EDGE_CURVE ( 'NONE', #146, #146, #175, .T. ) ;
#280 = VERTEX_POINT ( 'NONE', #58 ) ;
#281 = ORIENTED_EDGE ( 'NONE', *, *, #213, .T. ) ;
#282 = CARTESIAN_POINT ( 'NONE',  ( 0.0000000000000000000, -10.00000000000000900, 0.0000000000000000000 ) ) ;
#283 = PRESENTATION_LAYER_ASSIGNMENT (  '', '', ( #69 ) ) ;
#284 = VERTEX_POINT ( 'NONE', #28 ) ;
#285 = EDGE_LOOP ( 'NONE', ( #289 ) ) ;
#286 = AXIS2_PLACEMENT_3D ( 'NONE', #291, #321, #161 ) ;
#287 = CYLINDRICAL_SURFACE ( 'NONE', #23, 65.00000000000000000 ) ;
#288 = FACE_OUTER_BOUND ( 'NONE', #133, .T. ) ;
#289 = ORIENTED_EDGE ( 'NONE', *, *, #308, .F. ) ;
#290 = UNCERTAINTY_MEASURE_WITH_UNIT (LENGTH_MEASURE( 1.000000000000000100E-005 ), #193, 'distance_accuracy_value', 'NONE');
#291 = CARTESIAN_POINT ( 'NONE',  ( 0.0000000000000000000, -7.000000000000008900, 0.0000000000000000000 ) ) ;
#292 = ORIENTED_EDGE ( 'NONE', *, *, #3, .T. ) ;
#293 = DIRECTION ( 'NONE',  ( 0.0000000000000000000, 0.0000000000000000000, 1.000000000000000000 ) ) ;
#294 = PRODUCT_DEFINITION_CONTEXT ( 'detailed design', #163, 'design' ) ;
#295 = AXIS2_PLACEMENT_3D ( 'NONE', #159, #17, #21 ) ;
#296 = FACE_OUTER_BOUND ( 'NONE', #271, .T. ) ;
#297 = DIRECTION ( 'NONE',  ( 1.000000000000000000, 0.0000000000000000000, 0.0000000000000000000 ) ) ;
#298 = CARTESIAN_POINT ( 'NONE',  ( 0.0000000000000000000, -10.00000000000000900, -57.10000000000000100 ) ) ;
#299 = DIRECTION ( 'NONE',  ( 0.0000000000000000000, 0.0000000000000000000, 1.000000000000000000 ) ) ;
#300 = CARTESIAN_POINT ( 'NONE',  ( 0.0000000000000000000, -5.000000000000008000, 0.0000000000000000000 ) ) ;
#301 = AXIS2_PLACEMENT_3D ( 'NONE', #100, #316, #129 ) ;
#302 = FACE_BOUND ( 'NONE', #313, .T. ) ;
#303 = EDGE_LOOP ( 'NONE', ( #281 ) ) ;
#304 = CIRCLE ( 'NONE', #121, 65.00000000000000000 ) ;
#305 = DIRECTION ( 'NONE',  ( 0.0000000000000000000, 1.000000000000000000, 0.0000000000000000000 ) ) ;
#306 = FACE_OUTER_BOUND ( 'NONE', #202, .T. ) ;
#307 = EDGE_LOOP ( 'NONE', ( #7 ) ) ;
#308 = EDGE_CURVE ( 'NONE', #280, #280, #9, .T. ) ;
#309 = MECHANICAL_DESIGN_GEOMETRIC_PRESENTATION_REPRESENTATION (  '', ( #62 ), #96 ) ;
#310 = DIRECTION ( 'NONE',  ( -0.0000000000000000000, -1.000000000000000000, -0.0000000000000000000 ) ) ;
#311 = DIRECTION ( 'NONE',  ( 0.0000000000000000000, 1.000000000000000000, 0.0000000000000000000 ) ) ;
#312 = CYLINDRICAL_SURFACE ( 'NONE', #345, 57.10000000000000100 ) ;
#313 = EDGE_LOOP ( 'NONE', ( #209 ) ) ;
#314 = DIRECTION ( 'NONE',  ( 0.0000000000000000000, 1.000000000000000000, 0.0000000000000000000 ) ) ;
#315 = AXIS2_PLACEMENT_3D ( 'NONE', #118, #179, #43 ) ;
#316 = DIRECTION ( 'NONE',  ( 0.0000000000000000000, 1.000000000000000000, 0.0000000000000000000 ) ) ;
#317 = AXIS2_PLACEMENT_3D ( 'NONE', #53, #136, #245 ) ;
#318 = CARTESIAN_POINT ( 'NONE',  ( 0.0000000000000000000, -11.20000000000000800, 0.0000000000000000000 ) ) ;
#319 = FACE_OUTER_BOUND ( 'NONE', #29, .T. ) ;
#320 = CIRCLE ( 'NONE', #242, 65.00000000000000000 ) ;
#321 = DIRECTION ( 'NONE',  ( 0.0000000000000000000, 1.000000000000000000, 0.0000000000000000000 ) ) ;
#322 = EDGE_CURVE ( 'NONE', #138, #138, #197, .T. ) ;
#323 = FACE_OUTER_BOUND ( 'NONE', #258, .T. ) ;
#324 = ORIENTED_EDGE ( 'NONE', *, *, #262, .F. ) ;
#325 =( NAMED_UNIT ( * ) PLANE_ANGLE_UNIT ( ) SI_UNIT ( $, .RADIAN. ) );
#326 = ORIENTED_EDGE ( 'NONE', *, *, #221, .T. ) ;
#327 = ADVANCED_FACE ( 'NONE', ( #178, #68 ), #160, .T. ) ;
#328 = MECHANICAL_DESIGN_GEOMETRIC_PRESENTATION_REPRESENTATION (  '', ( #69 ), #191 ) ;
#329 = FACE_OUTER_BOUND ( 'NONE', #248, .T. ) ;
#330 = DIRECTION ( 'NONE',  ( 0.0000000000000000000, 1.000000000000000000, 0.0000000000000000000 ) ) ;
#331 = EDGE_LOOP ( 'NONE', ( #120 ) ) ;
#332 = DIRECTION ( 'NONE',  ( 0.0000000000000000000, 0.0000000000000000000, 1.000000000000000000 ) ) ;
#333 = ADVANCED_FACE ( 'NONE', ( #194, #264 ), #208, .F. ) ;
#334 = AXIS2_PLACEMENT_3D ( 'NONE', #67, #203, #200 ) ;
#335 = ADVANCED_FACE ( 'NONE', ( #222, #319 ), #287, .T. ) ;
#336 = ORIENTED_EDGE ( 'NONE', *, *, #3, .F. ) ;
#337 = AXIS2_PLACEMENT_3D ( 'NONE', #300, #105, #190 ) ;
#338 = CARTESIAN_POINT ( 'NONE',  ( 0.0000000000000000000, -11.20000000000000800, 0.0000000000000000000 ) ) ;
#339 = VERTEX_POINT ( 'NONE', #249 ) ;
#340 = ORIENTED_EDGE ( 'NONE', *, *, #112, .T. ) ;
#341 = EDGE_CURVE ( 'NONE', #339, #339, #111, .T. ) ;
#342 = EDGE_LOOP ( 'NONE', ( #86 ) ) ;
#343 = DIRECTION ( 'NONE',  ( 0.0000000000000000000, 0.0000000000000000000, -1.000000000000000000 ) ) ;
#344 = CARTESIAN_POINT ( 'NONE',  ( 51.07500000000000300, -6.889063427038953100E-015, 0.0000000000000000000 ) ) ;
#345 = AXIS2_PLACEMENT_3D ( 'NONE', #47, #231, #153 ) ;
#346 = AXIS2_PLACEMENT_3D ( 'NONE', #217, #26, #299 ) ;
#347 = APPLICATION_PROTOCOL_DEFINITION ( 'draft international standard', 'automotive_design', 1998, #163 ) ;
#348 = SURFACE_STYLE_FILL_AREA ( #201 ) ;
#349 = EDGE_LOOP ( 'NONE', ( #214 ) ) ;
#350 = UNCERTAINTY_MEASURE_WITH_UNIT (LENGTH_MEASURE( 1.000000000000000100E-005 ), #92, 'distance_accuracy_value', 'NONE');
#351 = DIRECTION ( 'NONE',  ( 0.0000000000000000000, 0.0000000000000000000, -1.000000000000000000 ) ) ;
#352 = CARTESIAN_POINT ( 'NONE',  ( 0.0000000000000000000, -6.489583207305955200, 64.82352941176471000 ) ) ;
#353 = CARTESIAN_POINT ( 'NONE',  ( 0.0000000000000000000, -3.510416792694058600, 64.82352941176469600 ) ) ;
#354 = EDGE_CURVE ( 'NONE', #255, #255, #275, .T. ) ;
ENDSEC;
END-ISO-10303-21;
